ISO-10303-21;
HEADER;
FILE_DESCRIPTION (( 'STEP AP203' ),
    '1' );
FILE_NAME ('BK7-NPBSC-25.4-650-900.STEP',
    '2020-12-22T02:09:25',
    ( '' ),
    ( '' ),
    'SwSTEP 2.0',
    'SolidWorks 2020',
    '' );
FILE_SCHEMA (( 'CONFIG_CONTROL_DESIGN' ));
ENDSEC;

DATA;
#1 = EDGE_CURVE ( 'NONE', #314, #188, #136, .T. ) ;
#2 = FACE_OUTER_BOUND ( 'NONE', #42, .T. ) ;
#3 = DIRECTION ( 'NONE',  ( 0.000000000000000000, 0.000000000000000000, 1.000000000000000000 ) ) ;
#4 = EDGE_CURVE ( 'NONE', #218, #285, #169, .T. ) ;
#5 = COORDINATED_UNIVERSAL_TIME_OFFSET ( 8, 0, .AHEAD. ) ;
#6 = ORIENTED_EDGE ( 'NONE', *, *, #165, .F. ) ;
#7 = EDGE_CURVE ( 'NONE', #245, #134, #277, .T. ) ;
#8 = PERSON_AND_ORGANIZATION ( #191, #11 ) ;
#9 = ORIENTED_EDGE ( 'NONE', *, *, #125, .F. ) ;
#10 = FACE_OUTER_BOUND ( 'NONE', #113, .T. ) ;
#11 = ORGANIZATION ( 'UNSPECIFIED', 'UNSPECIFIED', '' ) ;
#12 = LINE ( 'NONE', #228, #211 ) ;
#13 = COORDINATED_UNIVERSAL_TIME_OFFSET ( 8, 0, .AHEAD. ) ;
#14 = VECTOR ( 'NONE', #281, 1000.000000000000000 ) ;
#15 = VECTOR ( 'NONE', #51, 1000.000000000000000 ) ;
#16 = LINE ( 'NONE', #46, #200 ) ;
#17 = CC_DESIGN_PERSON_AND_ORGANIZATION_ASSIGNMENT ( #239, #49, ( #71 ) ) ;
#18 = LINE ( 'NONE', #54, #22 ) ;
#19 = FACE_OUTER_BOUND ( 'NONE', #155, .T. ) ;
#20 = CARTESIAN_POINT ( 'NONE',  ( 12.69999999999999929, -12.69999999999999929, 12.69999999999999929 ) ) ;
#21 = DATE_AND_TIME ( #299, #141 ) ;
#22 = VECTOR ( 'NONE', #226, 1000.000000000000000 ) ;
#23 = LINE ( 'NONE', #174, #271 ) ;
#24 = AXIS2_PLACEMENT_3D ( 'NONE', #58, #289, #158 ) ;
#25 = CC_DESIGN_DATE_AND_TIME_ASSIGNMENT ( #21, #257, ( #320 ) ) ;
#26 = APPROVAL_DATE_TIME ( #120, #135 ) ;
#27 = FACE_OUTER_BOUND ( 'NONE', #38, .T. ) ;
#28 = ORIENTED_EDGE ( 'NONE', *, *, #34, .T. ) ;
#29 = CARTESIAN_POINT ( 'NONE',  ( 12.69999999999999574, 12.69999999999999574, 12.69999999999999929 ) ) ;
#30 = ADVANCED_FACE ( 'NONE', ( #19 ), #95, .F. ) ;
#31 = DIRECTION ( 'NONE',  ( -0.000000000000000000, 0.000000000000000000, 1.000000000000000000 ) ) ;
#32 = EDGE_CURVE ( 'NONE', #190, #134, #72, .T. ) ;
#33 = CARTESIAN_POINT ( 'NONE',  ( 12.69999999999999574, 12.69999999999999574, 12.69999999999999929 ) ) ;
#34 = EDGE_CURVE ( 'NONE', #284, #186, #203, .T. ) ;
#35 = VECTOR ( 'NONE', #261, 999.9999999999998863 ) ;
#36 = VECTOR ( 'NONE', #255, 1000.000000000000000 ) ;
#37 = AXIS2_PLACEMENT_3D ( 'NONE', #260, #31, #176 ) ;
#38 = EDGE_LOOP ( 'NONE', ( #110, #306, #6, #88 ) ) ;
#39 = ORIENTED_EDGE ( 'NONE', *, *, #100, .F. ) ;
#40 = CARTESIAN_POINT ( 'NONE',  ( -12.70000000000000284, 12.70000000000000284, 12.69999999999999929 ) ) ;
#41 = ORIENTED_EDGE ( 'NONE', *, *, #181, .T. ) ;
#42 = EDGE_LOOP ( 'NONE', ( #45, #66, #270 ) ) ;
#43 = APPROVAL_PERSON_ORGANIZATION ( #115, #145, #147 ) ;
#44 = CC_DESIGN_DATE_AND_TIME_ASSIGNMENT ( #316, #267, ( #280 ) ) ;
#45 = ORIENTED_EDGE ( 'NONE', *, *, #168, .T. ) ;
#46 = CARTESIAN_POINT ( 'NONE',  ( 12.69999999999999574, 12.69999999999999574, 12.69999999999999929 ) ) ;
#47 = APPROVAL_ROLE ( '' ) ;
#48 = LINE ( 'NONE', #140, #151 ) ;
#49 = PERSON_AND_ORGANIZATION_ROLE ( 'design_owner' ) ;
#50 = CLOSED_SHELL ( 'NONE', ( #154, #231, #217, #279, #210 ) ) ;
#51 = DIRECTION ( 'NONE',  ( -0.000000000000000000, -0.000000000000000000, -1.000000000000000000 ) ) ;
#52 = DATE_AND_TIME ( #227, #86 ) ;
#53 = CARTESIAN_POINT ( 'NONE',  ( -12.69999999999999574, -12.69999999999999396, -12.69999999999999929 ) ) ;
#54 = CARTESIAN_POINT ( 'NONE',  ( -12.69999999999999751, -12.69999999999999929, 12.69999999999999929 ) ) ;
#55 = CALENDAR_DATE ( 2020, 22, 12 ) ;
#56 = DIRECTION ( 'NONE',  ( -1.000000000000000000, 0.000000000000000000, 0.000000000000000000 ) ) ;
#57 = LINE ( 'NONE', #29, #229 ) ;
#58 = CARTESIAN_POINT ( 'NONE',  ( 0.000000000000000000, 0.000000000000000000, 12.69999999999999929 ) ) ;
#59 = DIRECTION ( 'NONE',  ( 0.000000000000000000, 0.000000000000000000, 1.000000000000000000 ) ) ;
#60 = ORIENTED_EDGE ( 'NONE', *, *, #32, .F. ) ;
#61 = DIRECTION ( 'NONE',  ( 1.000000000000000000, 0.000000000000000000, 0.000000000000000000 ) ) ;
#62 = ORIENTED_EDGE ( 'NONE', *, *, #247, .T. ) ;
#63 = CARTESIAN_POINT ( 'NONE',  ( -12.69999999999999574, -12.69999999999999396, 12.69999999999999929 ) ) ;
#64 = VECTOR ( 'NONE', #107, 1000.000000000000000 ) ;
#65 = VECTOR ( 'NONE', #296, 1000.000000000000000 ) ;
#66 = ORIENTED_EDGE ( 'NONE', *, *, #165, .T. ) ;
#67 = DIRECTION ( 'NONE',  ( 1.000000000000000000, -2.220446049250312588E-16, 0.000000000000000000 ) ) ;
#68 = ORIENTED_EDGE ( 'NONE', *, *, #73, .F. ) ;
#69 = ORIENTED_EDGE ( 'NONE', *, *, #117, .F. ) ;
#70 = PLANE ( 'NONE',  #303 ) ;
#71 = PRODUCT ( 'BK7-NPBSC-25.4-650-900', 'BK7-NPBSC-25.4-650-900', '', ( #187 ) ) ;
#72 = LINE ( 'NONE', #319, #85 ) ;
#73 = EDGE_CURVE ( 'NONE', #314, #87, #23, .T. ) ;
#74 = PLANE ( 'NONE',  #173 ) ;
#75 = DIRECTION ( 'NONE',  ( 1.000000000000000000, 0.000000000000000000, 0.000000000000000000 ) ) ;
#76 = DIRECTION ( 'NONE',  ( 0.000000000000000000, 0.000000000000000000, 1.000000000000000000 ) ) ;
#77 = DIRECTION ( 'NONE',  ( 0.000000000000000000, 0.000000000000000000, -1.000000000000000000 ) ) ;
#78 = FACE_OUTER_BOUND ( 'NONE', #268, .T. ) ;
#79 = APPROVAL_DATE_TIME ( #52, #145 ) ;
#80 = ORIENTED_EDGE ( 'NONE', *, *, #259, .F. ) ;
#81 = PLANE ( 'NONE',  #264 ) ;
#82 = ADVANCED_FACE ( 'NONE', ( #116 ), #230, .F. ) ;
#83 = CARTESIAN_POINT ( 'NONE',  ( 12.69999999999999929, 12.69999999999999929, -12.69999999999999929 ) ) ;
#84 = CARTESIAN_POINT ( 'NONE',  ( 12.69999999999999929, -12.69999999999999929, -12.69999999999999929 ) ) ;
#85 = VECTOR ( 'NONE', #170, 1000.000000000000114 ) ;
#86 = LOCAL_TIME ( 10, 9, 25.00000000000000000, #177 ) ;
#87 = VERTEX_POINT ( 'NONE', #224 ) ;
#88 = ORIENTED_EDGE ( 'NONE', *, *, #7, .T. ) ;
#89 = CLOSED_SHELL ( 'NONE', ( #82, #310, #30, #193, #131 ) ) ;
#90 = APPROVAL_PERSON_ORGANIZATION ( #199, #135, #250 ) ;
#91 = VERTEX_POINT ( 'NONE', #53 ) ;
#92 = ORIENTED_EDGE ( 'NONE', *, *, #269, .F. ) ;
#93 = EDGE_CURVE ( 'NONE', #308, #91, #48, .T. ) ;
#94 = CARTESIAN_POINT ( 'NONE',  ( 12.69999999999999574, 12.69999999999999574, -12.69999999999999929 ) ) ;
#95 = PLANE ( 'NONE',  #256 ) ;
#96 = CARTESIAN_POINT ( 'NONE',  ( -12.69999999999999751, -12.69999999999999929, 12.69999999999999929 ) ) ;
#97 = PERSON_AND_ORGANIZATION_ROLE ( 'design_supplier' ) ;
#98 = VECTOR ( 'NONE', #75, 1000.000000000000000 ) ;
#99 = DIRECTION ( 'NONE',  ( -0.7071067811865474617, -0.7071067811865474617, 0.000000000000000000 ) ) ;
#100 = EDGE_CURVE ( 'NONE', #134, #188, #321, .T. ) ;
#101 = COORDINATED_UNIVERSAL_TIME_OFFSET ( 8, 0, .AHEAD. ) ;
#102 = CARTESIAN_POINT ( 'NONE',  ( -12.69999999999999574, -12.69999999999999396, -12.69999999999999929 ) ) ;
#103 = CARTESIAN_POINT ( 'NONE',  ( 12.69999999999999929, 12.69999999999999929, 12.69999999999999929 ) ) ;
#104 = VECTOR ( 'NONE', #209, 1000.000000000000000 ) ;
#105 = CARTESIAN_POINT ( 'NONE',  ( -12.69999999999999574, -12.69999999999999396, 12.69999999999999929 ) ) ;
#106 = CARTESIAN_POINT ( 'NONE',  ( 12.69999999999999929, 12.69999999999999929, -12.69999999999999929 ) ) ;
#107 = DIRECTION ( 'NONE',  ( 0.000000000000000000, 0.000000000000000000, -1.000000000000000000 ) ) ;
#108 = ORIENTED_EDGE ( 'NONE', *, *, #4, .F. ) ;
#109 = DATE_AND_TIME ( #312, #201 ) ;
#110 = ORIENTED_EDGE ( 'NONE', *, *, #100, .T. ) ;
#111 = EDGE_LOOP ( 'NONE', ( #313, #291, #311 ) ) ;
#112 = ORIENTED_EDGE ( 'NONE', *, *, #93, .F. ) ;
#113 = EDGE_LOOP ( 'NONE', ( #69, #112, #266, #290 ) ) ;
#114 = LINE ( 'NONE', #148, #104 ) ;
#115 = PERSON_AND_ORGANIZATION ( #191, #11 ) ;
#116 = FACE_OUTER_BOUND ( 'NONE', #132, .T. ) ;
#117 = EDGE_CURVE ( 'NONE', #91, #218, #146, .T. ) ;
#118 = DIRECTION ( 'NONE',  ( -0.7071067811865475727, 0.7071067811865475727, 0.000000000000000000 ) ) ;
#119 = CARTESIAN_POINT ( 'NONE',  ( 12.69999999999999929, 12.69999999999999929, 12.69999999999999929 ) ) ;
#120 = DATE_AND_TIME ( #55, #238 ) ;
#121 = AXIS2_PLACEMENT_3D ( 'NONE', #248, #118, #204 ) ;
#122 = CC_DESIGN_APPROVAL ( #135, ( #320 ) ) ;
#123 = DIRECTION ( 'NONE',  ( -0.000000000000000000, 1.000000000000000000, -0.000000000000000000 ) ) ;
#124 = CARTESIAN_POINT ( 'NONE',  ( -12.69999999999999751, -12.69999999999999929, 12.69999999999999929 ) ) ;
#125 = EDGE_CURVE ( 'NONE', #186, #285, #16, .T. ) ;
#126 = CARTESIAN_POINT ( 'NONE',  ( -12.69999999999999751, -12.69999999999999929, 12.69999999999999929 ) ) ;
#127 = DIRECTION ( 'NONE',  ( -0.7071067811865475727, -0.7071067811865475727, 0.000000000000000000 ) ) ;
#128 = CARTESIAN_POINT ( 'NONE',  ( 12.69999999999999574, 12.69999999999999574, -12.69999999999999929 ) ) ;
#129 = PRODUCT_RELATED_PRODUCT_CATEGORY ( 'detail', '', ( #71 ) ) ;
#130 = CARTESIAN_POINT ( 'NONE',  ( 0.000000000000000000, 0.000000000000000000, 0.000000000000000000 ) ) ;
#131 = ADVANCED_FACE ( 'NONE', ( #220 ), #70, .F. ) ;
#132 = EDGE_LOOP ( 'NONE', ( #164, #9, #62, #240 ) ) ;
#133 = APPROVAL_STATUS ( 'not_yet_approved' ) ;
#134 = VERTEX_POINT ( 'NONE', #251 ) ;
#135 = APPROVAL ( #276, 'UNSPECIFIED' ) ;
#136 = LINE ( 'NONE', #20, #15 ) ;
#137 = LOCAL_TIME ( 10, 9, 25.00000000000000000, #13 ) ;
#138 = ORIENTED_EDGE ( 'NONE', *, *, #34, .F. ) ;
#139 = DIRECTION ( 'NONE',  ( 0.7071067811865474617, 0.7071067811865474617, 0.000000000000000000 ) ) ;
#140 = CARTESIAN_POINT ( 'NONE',  ( -12.69999999999999574, -12.69999999999999396, 12.69999999999999929 ) ) ;
#141 = LOCAL_TIME ( 10, 9, 25.00000000000000000, #295 ) ;
#142 = DIRECTION ( 'NONE',  ( 0.000000000000000000, 0.000000000000000000, 1.000000000000000000 ) ) ;
#143 = DIRECTION ( 'NONE',  ( -2.220446049250312588E-16, 1.000000000000000000, 0.000000000000000000 ) ) ;
#144 = SHAPE_DEFINITION_REPRESENTATION ( #246, #235 ) ;
#145 = APPROVAL ( #196, 'UNSPECIFIED' ) ;
#146 = LINE ( 'NONE', #102, #207 ) ;
#147 = APPROVAL_ROLE ( '' ) ;
#148 = CARTESIAN_POINT ( 'NONE',  ( 12.69999999999999929, 12.69999999999999929, 12.69999999999999929 ) ) ;
#149 = CARTESIAN_POINT ( 'NONE',  ( -12.70000000000000284, 12.70000000000000284, -12.69999999999999929 ) ) ;
#150 = FACE_OUTER_BOUND ( 'NONE', #243, .T. ) ;
#151 = VECTOR ( 'NONE', #197, 1000.000000000000000 ) ;
#152 = AXIS2_PLACEMENT_3D ( 'NONE', #130, #3, #61 ) ;
#153 = LINE ( 'NONE', #128, #35 ) ;
#154 = ADVANCED_FACE ( 'NONE', ( #253 ), #317, .F. ) ;
#155 = EDGE_LOOP ( 'NONE', ( #108, #244, #28, #219 ) ) ;
#156 =( NAMED_UNIT ( * ) PLANE_ANGLE_UNIT ( ) SI_UNIT ( $, .RADIAN. ) );
#157 = ORIENTED_EDGE ( 'NONE', *, *, #181, .F. ) ;
#158 = DIRECTION ( 'NONE',  ( 1.000000000000000000, 0.000000000000000000, 0.000000000000000000 ) ) ;
#159 = CC_DESIGN_PERSON_AND_ORGANIZATION_ASSIGNMENT ( #254, #225, ( #183 ) ) ;
#160 =( NAMED_UNIT ( * ) SI_UNIT ( $, .STERADIAN. ) SOLID_ANGLE_UNIT ( ) );
#161 = MANIFOLD_SOLID_BREP ( 'Í¹Ì¨-À', #50 ) ;
#162 = ORIENTED_EDGE ( 'NONE', *, *, #269, .T. ) ;
#163 = MANIFOLD_SOLID_BREP ( '¾µÏ', #89 ) ;
#164 = ORIENTED_EDGE ( 'NONE', *, *, #213, .F. ) ;
#165 = EDGE_CURVE ( 'NONE', #245, #314, #18, .T. ) ;
#166 = AXIS2_PLACEMENT_3D ( 'NONE', #119, #275, #139 ) ;
#167 = ORIENTED_EDGE ( 'NONE', *, *, #247, .F. ) ;
#168 = EDGE_CURVE ( 'NONE', #87, #245, #12, .T. ) ;
#169 = LINE ( 'NONE', #94, #262 ) ;
#170 = DIRECTION ( 'NONE',  ( -0.7071067811865474617, -0.7071067811865474617, 0.000000000000000000 ) ) ;
#171 = APPLICATION_PROTOCOL_DEFINITION ( 'international standard', 'config_control_design', 1994, #241 ) ;
#172 = DIRECTION ( 'NONE',  ( 0.000000000000000000, 0.000000000000000000, 1.000000000000000000 ) ) ;
#173 = AXIS2_PLACEMENT_3D ( 'NONE', #185, #67, #142 ) ;
#174 = CARTESIAN_POINT ( 'NONE',  ( 12.69999999999999929, 12.69999999999999929, 12.69999999999999929 ) ) ;
#175 = DIRECTION ( 'NONE',  ( -2.220446049250312588E-16, 1.000000000000000000, 0.000000000000000000 ) ) ;
#176 = DIRECTION ( 'NONE',  ( 1.000000000000000000, 0.000000000000000000, 0.000000000000000000 ) ) ;
#177 = COORDINATED_UNIVERSAL_TIME_OFFSET ( 8, 0, .AHEAD. ) ;
#178 = DIRECTION ( 'NONE',  ( -2.220446049250312588E-16, 1.000000000000000000, 0.000000000000000000 ) ) ;
#179 = DESIGN_CONTEXT ( 'detailed design', #287, 'design' ) ;
#180 = CARTESIAN_POINT ( 'NONE',  ( 0.000000000000000000, 0.000000000000000000, 12.69999999999999929 ) ) ;
#181 = EDGE_CURVE ( 'NONE', #87, #190, #114, .T. ) ;
#182 = PLANE ( 'NONE',  #189 ) ;
#183 = PRODUCT_DEFINITION_FORMATION_WITH_SPECIFIED_SOURCE ( 'ANY', '', #71, .NOT_KNOWN. ) ;
#184 = CC_DESIGN_SECURITY_CLASSIFICATION ( #320, ( #183 ) ) ;
#185 = CARTESIAN_POINT ( 'NONE',  ( -12.69999999999999574, -12.69999999999999396, 12.69999999999999929 ) ) ;
#186 = VERTEX_POINT ( 'NONE', #33 ) ;
#187 = MECHANICAL_CONTEXT ( 'NONE', #241, 'mechanical' ) ;
#188 = VERTEX_POINT ( 'NONE', #84 ) ;
#189 = AXIS2_PLACEMENT_3D ( 'NONE', #180, #59, #178 ) ;
#190 = VERTEX_POINT ( 'NONE', #83 ) ;
#191 = PERSON ( 'UNSPECIFIED', 'UNSPECIFIED', 'UNSPECIFIED', ('UNSPECIFIED'), ('UNSPECIFIED'), ('UNSPECIFIED') ) ;
#192 = ORIENTED_EDGE ( 'NONE', *, *, #7, .F. ) ;
#193 = ADVANCED_FACE ( 'NONE', ( #150 ), #182, .T. ) ;
#194 = CARTESIAN_POINT ( 'NONE',  ( -12.70000000000000284, 12.70000000000000284, 12.69999999999999929 ) ) ;
#195 = DIRECTION ( 'NONE',  ( 1.000000000000000000, -2.220446049250312588E-16, 0.000000000000000000 ) ) ;
#196 = APPROVAL_STATUS ( 'not_yet_approved' ) ;
#197 = DIRECTION ( 'NONE',  ( 0.000000000000000000, 0.000000000000000000, -1.000000000000000000 ) ) ;
#198 = APPROVAL ( #133, 'UNSPECIFIED' ) ;
#199 = PERSON_AND_ORGANIZATION ( #191, #11 ) ;
#200 = VECTOR ( 'NONE', #77, 1000.000000000000000 ) ;
#201 = LOCAL_TIME ( 10, 9, 25.00000000000000000, #5 ) ;
#202 = PERSON_AND_ORGANIZATION ( #191, #11 ) ;
#203 = LINE ( 'NONE', #274, #36 ) ;
#204 = DIRECTION ( 'NONE',  ( 0.7071067811865475727, 0.7071067811865475727, 0.000000000000000000 ) ) ;
#205 = SECURITY_CLASSIFICATION_LEVEL ( 'unclassified' ) ;
#206 = VECTOR ( 'NONE', #236, 1000.000000000000000 ) ;
#207 = VECTOR ( 'NONE', #143, 1000.000000000000000 ) ;
#208 = LINE ( 'NONE', #106, #206 ) ;
#209 = DIRECTION ( 'NONE',  ( -0.000000000000000000, -0.000000000000000000, -1.000000000000000000 ) ) ;
#210 = ADVANCED_FACE ( 'NONE', ( #78 ), #278, .F. ) ;
#211 = VECTOR ( 'NONE', #99, 1000.000000000000114 ) ;
#212 = ORIENTED_EDGE ( 'NONE', *, *, #168, .F. ) ;
#213 = EDGE_CURVE ( 'NONE', #285, #91, #153, .T. ) ;
#214 = CALENDAR_DATE ( 2020, 22, 12 ) ;
#215 = ORIENTED_EDGE ( 'NONE', *, *, #32, .T. ) ;
#216 =( GEOMETRIC_REPRESENTATION_CONTEXT ( 3 ) GLOBAL_UNCERTAINTY_ASSIGNED_CONTEXT ( ( #301 ) ) GLOBAL_UNIT_ASSIGNED_CONTEXT ( ( #265, #156, #160 ) ) REPRESENTATION_CONTEXT ( 'NONE', 'WORKASPACE' ) );
#217 = ADVANCED_FACE ( 'NONE', ( #282 ), #258, .F. ) ;
#218 = VERTEX_POINT ( 'NONE', #149 ) ;
#219 = ORIENTED_EDGE ( 'NONE', *, *, #125, .T. ) ;
#220 = FACE_OUTER_BOUND ( 'NONE', #111, .T. ) ;
#221 = AXIS2_PLACEMENT_3D ( 'NONE', #103, #56, #237 ) ;
#222 = PERSON_AND_ORGANIZATION ( #191, #11 ) ;
#223 = CC_DESIGN_PERSON_AND_ORGANIZATION_ASSIGNMENT ( #222, #309, ( #280 ) ) ;
#224 = CARTESIAN_POINT ( 'NONE',  ( 12.69999999999999929, 12.69999999999999929, 12.69999999999999929 ) ) ;
#225 = PERSON_AND_ORGANIZATION_ROLE ( 'creator' ) ;
#226 = DIRECTION ( 'NONE',  ( 1.000000000000000000, 0.000000000000000000, 0.000000000000000000 ) ) ;
#227 = CALENDAR_DATE ( 2020, 22, 12 ) ;
#228 = CARTESIAN_POINT ( 'NONE',  ( 12.69999999999999929, 12.69999999999999929, 12.69999999999999929 ) ) ;
#229 = VECTOR ( 'NONE', #127, 999.9999999999998863 ) ;
#230 = PLANE ( 'NONE',  #121 ) ;
#231 = ADVANCED_FACE ( 'NONE', ( #27 ), #81, .F. ) ;
#232 = DIRECTION ( 'NONE',  ( 0.000000000000000000, 1.000000000000000000, 0.000000000000000000 ) ) ;
#233 = LINE ( 'NONE', #105, #14 ) ;
#234 = CC_DESIGN_APPROVAL ( #145, ( #183 ) ) ;
#235 = ADVANCED_BREP_SHAPE_REPRESENTATION ( 'BK7-NPBSC-25.4-650-900', ( #161, #163, #152 ), #216 ) ;
#236 = DIRECTION ( 'NONE',  ( -0.000000000000000000, 1.000000000000000000, -0.000000000000000000 ) ) ;
#237 = DIRECTION ( 'NONE',  ( 0.000000000000000000, 0.000000000000000000, 1.000000000000000000 ) ) ;
#238 = LOCAL_TIME ( 10, 9, 25.00000000000000000, #101 ) ;
#239 = PERSON_AND_ORGANIZATION ( #191, #11 ) ;
#240 = ORIENTED_EDGE ( 'NONE', *, *, #93, .T. ) ;
#241 = APPLICATION_CONTEXT ( 'configuration controlled 3d designs of mechanical parts and assemblies' ) ;
#242 = APPROVAL_DATE_TIME ( #109, #198 ) ;
#243 = EDGE_LOOP ( 'NONE', ( #167, #138, #80 ) ) ;
#244 = ORIENTED_EDGE ( 'NONE', *, *, #315, .F. ) ;
#245 = VERTEX_POINT ( 'NONE', #126 ) ;
#246 = PRODUCT_DEFINITION_SHAPE ( 'NONE', 'NONE',  #280 ) ;
#247 = EDGE_CURVE ( 'NONE', #186, #308, #57, .T. ) ;
#248 = CARTESIAN_POINT ( 'NONE',  ( 12.69999999999999574, 12.69999999999999574, 12.69999999999999929 ) ) ;
#249 = CARTESIAN_POINT ( 'NONE',  ( -12.69999999999999751, -12.69999999999999929, -12.69999999999999929 ) ) ;
#250 = APPROVAL_ROLE ( '' ) ;
#251 = CARTESIAN_POINT ( 'NONE',  ( -12.69999999999999751, -12.69999999999999929, -12.69999999999999929 ) ) ;
#252 = PERSON_AND_ORGANIZATION_ROLE ( 'classification_officer' ) ;
#253 = FACE_OUTER_BOUND ( 'NONE', #288, .T. ) ;
#254 = PERSON_AND_ORGANIZATION ( #191, #11 ) ;
#255 = DIRECTION ( 'NONE',  ( 1.000000000000000000, -2.220446049250312588E-16, 0.000000000000000000 ) ) ;
#256 = AXIS2_PLACEMENT_3D ( 'NONE', #298, #293, #76 ) ;
#257 = DATE_TIME_ROLE ( 'classification_date' ) ;
#258 = PLANE ( 'NONE',  #221 ) ;
#259 = EDGE_CURVE ( 'NONE', #308, #284, #233, .T. ) ;
#260 = CARTESIAN_POINT ( 'NONE',  ( 0.000000000000000000, 0.000000000000000000, -12.69999999999999929 ) ) ;
#261 = DIRECTION ( 'NONE',  ( -0.7071067811865475727, -0.7071067811865475727, 0.000000000000000000 ) ) ;
#262 = VECTOR ( 'NONE', #195, 1000.000000000000000 ) ;
#263 = CARTESIAN_POINT ( 'NONE',  ( 12.69999999999999574, 12.69999999999999574, -12.69999999999999929 ) ) ;
#264 = AXIS2_PLACEMENT_3D ( 'NONE', #124, #232, #300 ) ;
#265 =( LENGTH_UNIT ( ) NAMED_UNIT ( * ) SI_UNIT ( .MILLI., .METRE. ) );
#266 = ORIENTED_EDGE ( 'NONE', *, *, #259, .T. ) ;
#267 = DATE_TIME_ROLE ( 'creation_date' ) ;
#268 = EDGE_LOOP ( 'NONE', ( #60, #92, #39 ) ) ;
#269 = EDGE_CURVE ( 'NONE', #188, #190, #208, .T. ) ;
#270 = ORIENTED_EDGE ( 'NONE', *, *, #73, .T. ) ;
#271 = VECTOR ( 'NONE', #123, 1000.000000000000000 ) ;
#272 = EDGE_LOOP ( 'NONE', ( #162, #157, #68, #292 ) ) ;
#273 = CARTESIAN_POINT ( 'NONE',  ( 0.000000000000000000, 0.000000000000000000, -12.69999999999999929 ) ) ;
#274 = CARTESIAN_POINT ( 'NONE',  ( 12.69999999999999574, 12.69999999999999574, 12.69999999999999929 ) ) ;
#275 = DIRECTION ( 'NONE',  ( 0.7071067811865475727, -0.7071067811865475727, 0.000000000000000000 ) ) ;
#276 = APPROVAL_STATUS ( 'not_yet_approved' ) ;
#277 = LINE ( 'NONE', #96, #65 ) ;
#278 = PLANE ( 'NONE',  #37 ) ;
#279 = ADVANCED_FACE ( 'NONE', ( #2 ), #302, .T. ) ;
#280 = PRODUCT_DEFINITION ( 'UNKNOWN', '', #183, #179 ) ;
#281 = DIRECTION ( 'NONE',  ( -2.220446049250312588E-16, 1.000000000000000000, 0.000000000000000000 ) ) ;
#282 = FACE_OUTER_BOUND ( 'NONE', #272, .T. ) ;
#283 = CC_DESIGN_APPROVAL ( #198, ( #280 ) ) ;
#284 = VERTEX_POINT ( 'NONE', #194 ) ;
#285 = VERTEX_POINT ( 'NONE', #263 ) ;
#286 = APPLICATION_PROTOCOL_DEFINITION ( 'international standard', 'config_control_design', 1994, #287 ) ;
#287 = APPLICATION_CONTEXT ( 'configuration controlled 3d designs of mechanical parts and assemblies' ) ;
#288 = EDGE_LOOP ( 'NONE', ( #215, #192, #212, #41 ) ) ;
#289 = DIRECTION ( 'NONE',  ( -0.000000000000000000, 0.000000000000000000, 1.000000000000000000 ) ) ;
#290 = ORIENTED_EDGE ( 'NONE', *, *, #315, .T. ) ;
#291 = ORIENTED_EDGE ( 'NONE', *, *, #117, .T. ) ;
#292 = ORIENTED_EDGE ( 'NONE', *, *, #1, .T. ) ;
#293 = DIRECTION ( 'NONE',  ( 2.220446049250312588E-16, -1.000000000000000000, 0.000000000000000000 ) ) ;
#294 = LINE ( 'NONE', #40, #64 ) ;
#295 = COORDINATED_UNIVERSAL_TIME_OFFSET ( 8, 0, .AHEAD. ) ;
#296 = DIRECTION ( 'NONE',  ( -0.000000000000000000, -0.000000000000000000, -1.000000000000000000 ) ) ;
#297 = CC_DESIGN_PERSON_AND_ORGANIZATION_ASSIGNMENT ( #202, #252, ( #320 ) ) ;
#298 = CARTESIAN_POINT ( 'NONE',  ( 12.69999999999999574, 12.69999999999999574, 12.69999999999999929 ) ) ;
#299 = CALENDAR_DATE ( 2020, 22, 12 ) ;
#300 = DIRECTION ( 'NONE',  ( 0.000000000000000000, -0.000000000000000000, 1.000000000000000000 ) ) ;
#301 = UNCERTAINTY_MEASURE_WITH_UNIT (LENGTH_MEASURE( 1.000000000000000082E-05 ), #265, 'distance_accuracy_value', 'NONE');
#302 = PLANE ( 'NONE',  #24 ) ;
#303 = AXIS2_PLACEMENT_3D ( 'NONE', #273, #172, #175 ) ;
#304 = APPROVAL_PERSON_ORGANIZATION ( #8, #198, #47 ) ;
#305 = CC_DESIGN_PERSON_AND_ORGANIZATION_ASSIGNMENT ( #318, #97, ( #183 ) ) ;
#306 = ORIENTED_EDGE ( 'NONE', *, *, #1, .F. ) ;
#307 = CARTESIAN_POINT ( 'NONE',  ( 12.69999999999999929, -12.69999999999999929, 12.69999999999999929 ) ) ;
#308 = VERTEX_POINT ( 'NONE', #63 ) ;
#309 = PERSON_AND_ORGANIZATION_ROLE ( 'creator' ) ;
#310 = ADVANCED_FACE ( 'NONE', ( #10 ), #74, .F. ) ;
#311 = ORIENTED_EDGE ( 'NONE', *, *, #4, .T. ) ;
#312 = CALENDAR_DATE ( 2020, 22, 12 ) ;
#313 = ORIENTED_EDGE ( 'NONE', *, *, #213, .T. ) ;
#314 = VERTEX_POINT ( 'NONE', #307 ) ;
#315 = EDGE_CURVE ( 'NONE', #284, #218, #294, .T. ) ;
#316 = DATE_AND_TIME ( #214, #137 ) ;
#317 = PLANE ( 'NONE',  #166 ) ;
#318 = PERSON_AND_ORGANIZATION ( #191, #11 ) ;
#319 = CARTESIAN_POINT ( 'NONE',  ( 12.69999999999999929, 12.69999999999999929, -12.69999999999999929 ) ) ;
#320 = SECURITY_CLASSIFICATION ( '', '', #205 ) ;
#321 = LINE ( 'NONE', #249, #98 ) ;
ENDSEC;
END-ISO-10303-21;
